  0
SECTION
  2
HEADER
  9
$ACADVER
  1
AC1015
  9
$ACADMAINTVER
 70
     6
  9
$DWGCODEPAGE
  3
ANSI_1254
  9
$INSBASE
 10
0.0
 20
0.0
 30
0.0
  9
$EXTMIN
 10
0.0
 20
0.0
 30
0.0
  9
$EXTMAX
 10
279.4
 20
215.9
 30
0.0
  9
$LIMMIN
 10
0.0
 20
0.0
  9
$LIMMAX
 10
279.4
 20
215.9
  9
$ORTHOMODE
 70
     0
  9
$REGENMODE
 70
     1
  9
$FILLMODE
 70
     1
  9
$QTEXTMODE
 70
     0
  9
$MIRRTEXT
 70
     1
  9
$LTSCALE
 40
1.0
  9
$ATTMODE
 70
     1
  9
$TEXTSIZE
 40
3.5
  9
$TRACEWID
 40
1.0
  9
$TEXTSTYLE
  7
Standard
  9
$CLAYER
  8
0
  9
$CELTYPE
  6
ByLayer
  9
$CECOLOR
 62
   256
  9
$CELTSCALE
 40
1.0
  9
$DISPSILH
 70
     0
  9
$DIMSCALE
 40
1.0
  9
$DIMASZ
 40
3.5
  9
$DIMEXO
 40
1.0
  9
$DIMDLI
 40
3.75
  9
$DIMRND
 40
0.0
  9
$DIMDLE
 40
0.0
  9
$DIMEXE
 40
1.0
  9
$DIMTP
 40
0.0
  9
$DIMTM
 40
0.0
  9
$DIMTXT
 40
3.5
  9
$DIMCEN
 40
2.5
  9
$DIMTSZ
 40
0.0
  9
$DIMTOL
 70
     0
  9
$DIMLIM
 70
     0
  9
$DIMTIH
 70
     1
  9
$DIMTOH
 70
     1
  9
$DIMSE1
 70
     0
  9
$DIMSE2
 70
     0
  9
$DIMTAD
 70
     1
  9
$DIMZIN
 70
     0
  9
$DIMBLK
  1

  9
$DIMASO
 70
     1
  9
$DIMSHO
 70
     1
  9
$DIMPOST
  1

  9
$DIMAPOST
  1

  9
$DIMALT
 70
     0
  9
$DIMALTD
 70
     3
  9
$DIMALTF
 40
0.0393700787
  9
$DIMLFAC
 40
1.0
  9
$DIMTOFL
 70
     1
  9
$DIMTVP
 40
0.0
  9
$DIMTIX
 70
     0
  9
$DIMSOXD
 70
     0
  9
$DIMSAH
 70
     0
  9
$DIMBLK1
  1

  9
$DIMBLK2
  1

  9
$DIMSTYLE
  2
ISO-25
  9
$DIMCLRD
 70
     0
  9
$DIMCLRE
 70
     0
  9
$DIMCLRT
 70
     0
  9
$DIMTFAC
 40
1.0
  9
$DIMGAP
 40
1.524
  9
$DIMJUST
 70
     0
  9
$DIMSD1
 70
     0
  9
$DIMSD2
 70
     0
  9
$DIMTOLJ
 70
     0
  9
$DIMTZIN
 70
     0
  9
$DIMALTZ
 70
     0
  9
$DIMALTTZ
 70
     0
  9
$DIMUPT
 70
     0
  9
$DIMDEC
 70
     2
  9
$DIMTDEC
 70
     2
  9
$DIMALTU
 70
     2
  9
$DIMALTTD
 70
     3
  9
$DIMTXSTY
  7
Standard
  9
$DIMAUNIT
 70
     0
  9
$DIMADEC
 70
     2
  9
$DIMALTRND
 40
0.0
  9
$DIMAZIN
 70
     0
  9
$DIMDSEP
 70
    44
  9
$DIMATFIT
 70
     3
  9
$DIMFRAC
 70
     0
  9
$DIMLDRBLK
  1

  9
$DIMLUNIT
 70
     2
  9
$DIMLWD
 70
    -2
  9
$DIMLWE
 70
    -2
  9
$DIMTMOVE
 70
     0
  9
$LUNITS
 70
     2
  9
$LUPREC
 70
     2
  9
$SKETCHINC
 40
1.0
  9
$FILLETRAD
 40
10.0
  9
$AUNITS
 70
     0
  9
$AUPREC
 70
     2
  9
$MENU
  1
.
  9
$ELEVATION
 40
0.0
  9
$PELEVATION
 40
0.0
  9
$THICKNESS
 40
0.0
  9
$LIMCHECK
 70
     0
  9
$CHAMFERA
 40
0.0
  9
$CHAMFERB
 40
0.0
  9
$CHAMFERC
 40
0.0
  9
$CHAMFERD
 40
0.0
  9
$SKPOLY
 70
     0
  9
$TDCREATE
 40
2458985.691103843
  9
$TDUCREATE
 40
2458985.566103843
  9
$TDUPDATE
 40
2458985.691104224
  9
$TDUUPDATE
 40
2458985.566104224
  9
$TDINDWG
 40
0.0000000116
  9
$TDUSRTIMER
 40
0.0000000116
  9
$USRTIMER
 70
     1
  9
$ANGBASE
 50
0.0
  9
$ANGDIR
 70
     0
  9
$PDMODE
 70
     0
  9
$PDSIZE
 40
-1.0
  9
$PLINEWID
 40
0.0
  9
$SPLFRAME
 70
     0
  9
$SPLINETYPE
 70
     6
  9
$SPLINESEGS
 70
     8
  9
$HANDSEED
  5
CB
  9
$SURFTAB1
 70
     6
  9
$SURFTAB2
 70
     6
  9
$SURFTYPE
 70
     6
  9
$SURFU
 70
     6
  9
$SURFV
 70
     6
  9
$UCSBASE
  2

  9
$UCSNAME
  2

  9
$UCSORG
 10
0.0
 20
0.0
 30
0.0
  9
$UCSXDIR
 10
1.0
 20
0.0
 30
0.0
  9
$UCSYDIR
 10
0.0
 20
1.0
 30
0.0
  9
$UCSORTHOREF
  2

  9
$UCSORTHOVIEW
 70
     0
  9
$UCSORGTOP
 10
0.0
 20
0.0
 30
0.0
  9
$UCSORGBOTTOM
 10
0.0
 20
0.0
 30
0.0
  9
$UCSORGLEFT
 10
0.0
 20
0.0
 30
0.0
  9
$UCSORGRIGHT
 10
0.0
 20
0.0
 30
0.0
  9
$UCSORGFRONT
 10
0.0
 20
0.0
 30
0.0
  9
$UCSORGBACK
 10
0.0
 20
0.0
 30
0.0
  9
$PUCSBASE
  2

  9
$PUCSNAME
  2

  9
$PUCSORG
 10
0.0
 20
0.0
 30
0.0
  9
$PUCSXDIR
 10
1.0
 20
0.0
 30
0.0
  9
$PUCSYDIR
 10
0.0
 20
1.0
 30
0.0
  9
$PUCSORTHOREF
  2

  9
$PUCSORTHOVIEW
 70
     0
  9
$PUCSORGTOP
 10
0.0
 20
0.0
 30
0.0
  9
$PUCSORGBOTTOM
 10
0.0
 20
0.0
 30
0.0
  9
$PUCSORGLEFT
 10
0.0
 20
0.0
 30
0.0
  9
$PUCSORGRIGHT
 10
0.0
 20
0.0
 30
0.0
  9
$PUCSORGFRONT
 10
0.0
 20
0.0
 30
0.0
  9
$PUCSORGBACK
 10
0.0
 20
0.0
 30
0.0
  9
$USERI1
 70
     0
  9
$USERI2
 70
     0
  9
$USERI3
 70
     0
  9
$USERI4
 70
     0
  9
$USERI5
 70
     0
  9
$USERR1
 40
0.0
  9
$USERR2
 40
0.0
  9
$USERR3
 40
0.0
  9
$USERR4
 40
0.0
  9
$USERR5
 40
0.0
  9
$WORLDVIEW
 70
     1
  9
$SHADEDGE
 70
     3
  9
$SHADEDIF
 70
    70
  9
$TILEMODE
 70
     1
  9
$MAXACTVP
 70
    64
  9
$PINSBASE
 10
0.0
 20
0.0
 30
0.0
  9
$PLIMCHECK
 70
     0
  9
$PEXTMIN
 10
1.0000000000E+20
 20
1.0000000000E+20
 30
1.0000000000E+20
  9
$PEXTMAX
 10
-1.0000000000E+20
 20
-1.0000000000E+20
 30
-1.0000000000E+20
  9
$PLIMMIN
 10
0.0
 20
0.0
  9
$PLIMMAX
 10
420.0
 20
297.0
  9
$UNITMODE
 70
     0
  9
$VISRETAIN
 70
     1
  9
$PLINEGEN
 70
     0
  9
$PSLTSCALE
 70
     1
  9
$TREEDEPTH
 70
  3020
  9
$CMLSTYLE
  2
Standard
  9
$CMLJUST
 70
     0
  9
$CMLSCALE
 40
20.0
  9
$PROXYGRAPHICS
 70
     1
  9
$MEASUREMENT
 70
     1
  9
$CELWEIGHT
370
    -1
  9
$ENDCAPS
280
     0
  9
$JOINSTYLE
280
     0
  9
$LWDISPLAY
290
     1
  9
$INSUNITS
 70
     4
  9
$HYPERLINKBASE
  1

  9
$STYLESHEET
  1

  9
$XEDIT
290
     1
  9
$CEPSNTYPE
380
     0
  9
$PSTYLEMODE
290
     1
  9
$FINGERPRINTGUID
  2
{f548c459-9f68-49b6-bd66-84b5f581484b}
  9
$VERSIONGUID
  2
{FAEB1C32-E019-11D5-929B-00C0DF256EC4}
  9
$EXTNAMES
290
     1
  9
$PSVPSCALE
 40
0.0
  9
$OLESTARTUP
290
     0
  0
ENDSEC
  0
SECTION
  2
CLASSES
  0
CLASS
  1
ACDBDICTIONARYWDFLT
  2
AcDbDictionaryWithDefault
  3
ObjectDBX Classes
 90
        0
280
     0
281
     0
  0
CLASS
  1
VISUALSTYLE
  2
AcDbVisualStyle
  3
ObjectDBX Classes
 90
     4095
280
     0
281
     0
  0
CLASS
  1
MATERIAL
  2
AcDbMaterial
  3
ObjectDBX Classes
 90
     1153
280
     0
281
     0
  0
CLASS
  1
SCALE
  2
AcDbScale
  3
ObjectDBX Classes
 90
     1153
280
     0
281
     0
  0
CLASS
  1
TABLESTYLE
  2
AcDbTableStyle
  3
ObjectDBX Classes
 90
     4095
280
     0
281
     0
  0
CLASS
  1
MLEADERSTYLE
  2
AcDbMLeaderStyle
  3
ACDB_MLEADERSTYLE_CLASS
 90
     4095
280
     0
281
     0
  0
CLASS
  1
SUN
  2
AcDbSun
  3
SCENEOE
 90
     1153
280
     0
281
     0
  0
CLASS
  1
ACDBPLACEHOLDER
  2
AcDbPlaceHolder
  3
ObjectDBX Classes
 90
        0
280
     0
281
     0
  0
CLASS
  1
LAYOUT
  2
AcDbLayout
  3
ObjectDBX Classes
 90
        0
280
     0
281
     0
  0
ENDSEC
  0
SECTION
  2
TABLES
  0
TABLE
  2
VPORT
  5
8
330
0
100
AcDbSymbolTable
 70
     1
  0
VPORT
  5
29
330
8
100
AcDbSymbolTableRecord
100
AcDbViewportTableRecord
  2
*Active
 70
     0
 10
0.0
 20
0.0
 11
1.0
 21
1.0
 12
139.7
 22
107.95
 13
0.0
 23
0.0
 14
10.0
 24
10.0
 15
10.0
 25
10.0
 16
0.0
 26
0.0
 36
1.0
 17
0.0
 27
0.0
 37
0.0
 40
215.9
 41
1.2941176471
 42
50.0
 43
0.0
 44
0.0
 50
0.0
 51
0.0
 71
     0
 72
  2000
 73
     1
 74
     3
 75
     0
 76
     0
 77
     0
 78
     0
281
     0
 65
     1
110
0.0
120
0.0
130
0.0
111
1.0
121
0.0
131
0.0
112
0.0
122
1.0
132
0.0
 79
     0
146
0.0
  0
ENDTAB
  0
TABLE
  2
LTYPE
  5
5
330
0
100
AcDbSymbolTable
 70
     6
  0
LTYPE
  5
14
330
5
100
AcDbSymbolTableRecord
100
AcDbLinetypeTableRecord
  2
ByBlock
 70
     0
  3

 72
    65
 73
     0
 40
0.0
  0
LTYPE
  5
15
330
5
100
AcDbSymbolTableRecord
100
AcDbLinetypeTableRecord
  2
ByLayer
 70
     0
  3

 72
    65
 73
     0
 40
0.0
  0
LTYPE
  5
16
330
5
100
AcDbSymbolTableRecord
100
AcDbLinetypeTableRecord
  2
Continuous
 70
     0
  3
Solid line
 72
    65
 73
     0
 40
0.0
  0
LTYPE
  5
6E
330
5
100
AcDbSymbolTableRecord
100
AcDbLinetypeTableRecord
  2
HIDDEN
 70
     0
  3
Hidden __ __ __ __ __ __ __ __ __ __ __ __ __ __
 72
    65
 73
     2
 40
1.905
 49
1.27
 74
     0
 49
-0.635
 74
     0
  0
LTYPE
  5
6F
330
5
100
AcDbSymbolTableRecord
100
AcDbLinetypeTableRecord
  2
PHANTOM
 70
     0
  3
Phantom ______  __  __  ______  __  __  ______
 72
    65
 73
     6
 40
12.7
 49
6.35
 74
     0
 49
-1.27
 74
     0
 49
1.27
 74
     0
 49
-1.27
 74
     0
 49
1.27
 74
     0
 49
-1.27
 74
     0
  0
LTYPE
  5
70
330
5
100
AcDbSymbolTableRecord
100
AcDbLinetypeTableRecord
  2
CENTER
 70
     0
  3
Center ____ _ ____ _ ____ _ ____ _ ____ _ ____
 72
    65
 73
     4
 40
10.16
 49
6.35
 74
     0
 49
-1.27
 74
     0
 49
1.27
 74
     0
 49
-1.27
 74
     0
  0
LTYPE
  5
71
330
5
100
AcDbSymbolTableRecord
100
AcDbLinetypeTableRecord
  2
CENTERX2
 70
     0
  3
Center (2x) ________  __  ________  __  _____
 72
    65
 73
     4
 40
20.32
 49
12.7
 74
     0
 49
-2.54
 74
     0
 49
2.54
 74
     0
 49
-2.54
 74
     0
  0
LTYPE
  5
72
330
5
100
AcDbSymbolTableRecord
100
AcDbLinetypeTableRecord
  2
DOT2
 70
     0
  3
Dot (.5x) ........................................
 72
    65
 73
     2
 40
0.635
 49
0.0
 74
     0
 49
-0.635
 74
     0
  0
ENDTAB
  0
TABLE
  2
LAYER
  5
2
330
0
100
AcDbSymbolTable
 70
    17
  0
LAYER
  5
10
330
2
100
AcDbSymbolTableRecord
100
AcDbLayerTableRecord
  2
0
 70
     0
 62
     7
  6
Continuous
370
    -3
390
F
  0
LAYER
  5
73
330
2
100
AcDbSymbolTableRecord
100
AcDbLayerTableRecord
  2
FORMAT
 70
     0
 62
     7
  6
Continuous
370
    -3
390
F
  0
LAYER
  5
74
330
2
100
AcDbSymbolTableRecord
100
AcDbLayerTableRecord
  2
YARDIMCI_GEOMETRI
 70
     0
 62
    -6
  6
Continuous
290
     0
370
    -3
390
F
  0
LAYER
  5
75
330
2
100
AcDbSymbolTableRecord
100
AcDbLayerTableRecord
  2
SAYFA_CERCEVESI
 70
     0
 62
     7
  6
Continuous
370
    25
390
F
  0
LAYER
  5
76
330
2
100
AcDbSymbolTableRecord
100
AcDbLayerTableRecord
  2
ANTET
 70
     0
 62
     7
  6
Continuous
370
    -3
390
F
  0
LAYER
  5
77
330
2
100
AcDbSymbolTableRecord
100
AcDbLayerTableRecord
  2
OLCU
 70
     0
 62
   150
  6
Continuous
370
    -3
390
F
  0
LAYER
  5
78
330
2
100
AcDbSymbolTableRecord
100
AcDbLayerTableRecord
  2
METIN
 70
     0
 62
    96
  6
Continuous
370
    -3
390
F
  0
LAYER
  5
79
330
2
100
AcDbSymbolTableRecord
100
AcDbLayerTableRecord
  2
BALON
 70
     0
 62
     5
  6
Continuous
370
    -3
390
F
  0
LAYER
  5
7A
330
2
100
AcDbSymbolTableRecord
100
AcDbLayerTableRecord
  2
VURGU
 70
     0
 62
     7
  6
Continuous
370
    -3
390
F
  0
LAYER
  5
7B
330
2
100
AcDbSymbolTableRecord
100
AcDbLayerTableRecord
  2
SILIK
 70
     0
 62
     7
  6
Continuous
370
    -3
390
F
  0
LAYER
  5
7C
330
2
100
AcDbSymbolTableRecord
100
AcDbLayerTableRecord
  2
MODEL
 70
     0
 62
     7
  6
Continuous
370
    -3
390
F
  0
LAYER
  5
7D
330
2
100
AcDbSymbolTableRecord
100
AcDbLayerTableRecord
  2
DETAYLANDıRMA
 70
     0
 62
   190
  6
Continuous
370
    -3
390
F
  0
LAYER
  5
7E
330
2
100
AcDbSymbolTableRecord
100
AcDbLayerTableRecord
  2
TOLERANS
 70
     0
 62
   230
  6
Continuous
370
    -3
390
F
  0
LAYER
  5
7F
330
2
100
AcDbSymbolTableRecord
100
AcDbLayerTableRecord
  2
MERKEZ_CIZGILERI
 70
     0
 62
    30
  6
Continuous
370
    -3
390
F
  0
LAYER
  5
80
330
2
100
AcDbSymbolTableRecord
100
AcDbLayerTableRecord
  2
KESIT-DETAY_CIZGILERI
 70
     0
 62
     7
  6
Continuous
370
    -3
390
F
  0
LAYER
  5
81
330
2
100
AcDbSymbolTableRecord
100
AcDbLayerTableRecord
  2
\U+041E\U+0421\U+0415\U+0412\U+042B\U+0415
 70
     0
 62
     7
  6
Continuous
370
    -3
390
F
  0
LAYER
  5
82
330
2
100
AcDbSymbolTableRecord
100
AcDbLayerTableRecord
  2
\U+0412\U+041E\U+0414\U+042F\U+041D\U+042B\U+0415_\U+0417\U+041D\U+0410\U+041A\U+0418
 70
     0
 62
    11
  6
Continuous
370
    -3
390
F
  0
ENDTAB
  0
TABLE
  2
STYLE
  5
3
330
0
100
AcDbSymbolTable
 70
     1
  0
STYLE
  5
11
330
3
100
AcDbSymbolTableRecord
100
AcDbTextStyleTableRecord
  2
Standard
 70
     0
 40
0.0
 41
1.0
 50
0.0
 71
     0
 42
3.5
  3
txt
  4

  0
ENDTAB
  0
TABLE
  2
VIEW
  5
6
330
0
100
AcDbSymbolTable
 70
     0
  0
ENDTAB
  0
TABLE
  2
UCS
  5
7
330
0
100
AcDbSymbolTable
 70
     0
  0
ENDTAB
  0
TABLE
  2
APPID
  5
9
330
0
100
AcDbSymbolTable
 70
     1
  0
APPID
  5
12
330
9
100
AcDbSymbolTableRecord
100
AcDbRegAppTableRecord
  2
ACAD
 70
     0
  0
ENDTAB
  0
TABLE
  2
DIMSTYLE
  5
A
330
0
100
AcDbSymbolTable
 70
     1
100
AcDbDimStyleTable
  0
DIMSTYLE
105
27
330
A
100
AcDbSymbolTableRecord
100
AcDbDimStyleTableRecord
  2
ISO-25
 70
     0
 41
2.5
 42
0.625
 43
3.75
 44
1.25
 73
     0
 74
     0
 77
     1
 78
     8
140
2.5
141
2.5
143
0.0393700787
147
0.625
171
     3
172
     1
178
     0
271
     2
272
     2
274
     3
278
    44
283
     0
284
     8
340
11
  0
ENDTAB
  0
TABLE
  2
BLOCK_RECORD
  5
1
330
0
100
AcDbSymbolTable
 70
     3
  0
BLOCK_RECORD
  5
1F
330
1
100
AcDbSymbolTableRecord
100
AcDbBlockTableRecord
  2
*Model_Space
340
22
  0
BLOCK_RECORD
  5
1B
330
1
100
AcDbSymbolTableRecord
100
AcDbBlockTableRecord
  2
*Paper_Space
340
1E
  0
BLOCK_RECORD
  5
23
330
1
100
AcDbSymbolTableRecord
100
AcDbBlockTableRecord
  2
*Paper_Space0
340
26
  0
BLOCK_RECORD
  5
88
330
1
100
AcDbSymbolTableRecord
100
AcDbBlockTableRecord
  2
SW_CENTERMARKSYMBOL_0
340
0
102
{BLKREFS
331
93
102
}
  0
BLOCK_RECORD
  5
9C
330
1
100
AcDbSymbolTableRecord
100
AcDbBlockTableRecord
  2
SW_CENTERMARKSYMBOL_1
340
0
102
{BLKREFS
331
A7
102
}
  0
ENDTAB
  0
ENDSEC
  0
SECTION
  2
BLOCKS
  0
BLOCK
  5
20
330
1F
100
AcDbEntity
  8
0
100
AcDbBlockBegin
  2
*Model_Space
 70
     0
 10
0.0
 20
0.0
 30
0.0
  3
*Model_Space
  1

  0
ENDBLK
  5
21
330
1F
100
AcDbEntity
  8
0
100
AcDbBlockEnd
  0
BLOCK
  5
1C
330
1B
100
AcDbEntity
 67
     1
  8
0
100
AcDbBlockBegin
  2
*Paper_Space
 70
     0
 10
0.0
 20
0.0
 30
0.0
  3
*Paper_Space
  1

  0
ENDBLK
  5
1D
330
1B
100
AcDbEntity
 67
     1
  8
0
100
AcDbBlockEnd
  0
BLOCK
  5
24
330
23
100
AcDbEntity
  8
0
100
AcDbBlockBegin
  2
*Paper_Space0
 70
     0
 10
0.0
 20
0.0
 30
0.0
  3
*Paper_Space0
  1

  0
ENDBLK
  5
25
330
23
100
AcDbEntity
  8
0
100
AcDbBlockEnd
  0
BLOCK
  5
89
330
88
100
AcDbEntity
  8
0
100
AcDbBlockBegin
  2
SW_CENTERMARKSYMBOL_0
 70
     0
 10
0.0
 20
0.0
 30
0.0
  3
SW_CENTERMARKSYMBOL_0
  1

  0
LINE
  5
8B
330
88
100
AcDbEntity
  8
FORMAT
 62
     0
100
AcDbLine
 10
0.0
 20
0.0
 30
0.0
 11
2.5
 21
0.0
 31
0.0
  0
LINE
  5
8C
330
88
100
AcDbEntity
  8
FORMAT
 62
     0
100
AcDbLine
 10
0.0
 20
0.0
 30
0.0
 11
0.0
 21
2.5
 31
0.0
  0
LINE
  5
8D
330
88
100
AcDbEntity
  8
FORMAT
 62
     0
100
AcDbLine
 10
0.0
 20
0.0
 30
0.0
 11
-2.5
 21
0.0
 31
0.0
  0
LINE
  5
8E
330
88
100
AcDbEntity
  8
FORMAT
 62
     0
100
AcDbLine
 10
0.0
 20
0.0
 30
0.0
 11
0.0
 21
-2.5
 31
0.0
  0
LINE
  5
8F
330
88
100
AcDbEntity
  8
FORMAT
 62
     0
100
AcDbLine
 10
5.0
 20
0.0
 30
0.0
 11
115.0
 21
0.0
 31
0.0
  0
LINE
  5
90
330
88
100
AcDbEntity
  8
FORMAT
 62
     0
100
AcDbLine
 10
0.0
 20
5.0
 30
0.0
 11
0.0
 21
115.0
 31
0.0
  0
LINE
  5
91
330
88
100
AcDbEntity
  8
FORMAT
 62
     0
100
AcDbLine
 10
-5.0
 20
0.0
 30
0.0
 11
-115.0
 21
0.0
 31
0.0
  0
LINE
  5
92
330
88
100
AcDbEntity
  8
FORMAT
 62
     0
100
AcDbLine
 10
0.0
 20
-5.0
 30
0.0
 11
0.0
 21
-115.0
 31
0.0
  0
ENDBLK
  5
8A
330
88
100
AcDbEntity
  8
0
100
AcDbBlockEnd
  0
BLOCK
  5
9D
330
9C
100
AcDbEntity
  8
0
100
AcDbBlockBegin
  2
SW_CENTERMARKSYMBOL_1
 70
     0
 10
0.0
 20
0.0
 30
0.0
  3
SW_CENTERMARKSYMBOL_1
  1

  0
LINE
  5
9F
330
9C
100
AcDbEntity
  8
FORMAT
 62
     0
100
AcDbLine
 10
0.0
 20
0.0
 30
0.0
 11
0.0
 21
2.5
 31
0.0
  0
LINE
  5
A0
330
9C
100
AcDbEntity
  8
FORMAT
 62
     0
100
AcDbLine
 10
0.0
 20
0.0
 30
0.0
 11
-2.5
 21
0.0
 31
0.0
  0
LINE
  5
A1
330
9C
100
AcDbEntity
  8
FORMAT
 62
     0
100
AcDbLine
 10
0.0
 20
0.0
 30
0.0
 11
0.0
 21
-2.5
 31
0.0
  0
LINE
  5
A2
330
9C
100
AcDbEntity
  8
FORMAT
 62
     0
100
AcDbLine
 10
0.0
 20
0.0
 30
0.0
 11
2.5
 21
0.0
 31
0.0
  0
LINE
  5
A3
330
9C
100
AcDbEntity
  8
FORMAT
 62
     0
100
AcDbLine
 10
0.0
 20
5.0
 30
0.0
 11
0.0
 21
47.5
 31
0.0
  0
LINE
  5
A4
330
9C
100
AcDbEntity
  8
FORMAT
 62
     0
100
AcDbLine
 10
-5.0
 20
0.0
 30
0.0
 11
-47.5
 21
0.0
 31
0.0
  0
LINE
  5
A5
330
9C
100
AcDbEntity
  8
FORMAT
 62
     0
100
AcDbLine
 10
0.0
 20
-5.0
 30
0.0
 11
0.0
 21
-47.5
 31
0.0
  0
LINE
  5
A6
330
9C
100
AcDbEntity
  8
FORMAT
 62
     0
100
AcDbLine
 10
5.0
 20
0.0
 30
0.0
 11
47.5
 21
0.0
 31
0.0
  0
ENDBLK
  5
9E
330
9C
100
AcDbEntity
  8
0
100
AcDbBlockEnd
  0
ENDSEC
  0
SECTION
  2
ENTITIES
  0
LINE
  5
83
330
1F
100
AcDbEntity
  8
0
  6
Continuous
 62
     7
370
    25
100
AcDbLine
 10
95.2388257771
 20
50.0483837414
 30
0.0
 11
95.2388257771
 21
-68.8167411399
 31
0.0
  0
LINE
  5
84
330
1F
100
AcDbEntity
  8
0
  6
Continuous
 62
     7
370
    25
100
AcDbLine
 10
185.2388293534
 20
-68.8167411399
 30
0.0
 11
185.2388293534
 21
50.0170018959
 31
0.0
  0
CIRCLE
  5
85
330
1F
100
AcDbEntity
  8
0
  6
Continuous
 62
     7
370
    25
100
AcDbCircle
 10
140.2388275653
 20
153.1832617212
 30
0.0
 40
99.1
  0
CIRCLE
  5
86
330
1F
100
AcDbEntity
  8
0
  6
Continuous
 62
     7
370
    25
100
AcDbCircle
 10
140.2388275653
 20
153.1832617212
 30
0.0
 40
112.5
  0
LINE
  5
87
330
1F
100
AcDbEntity
  8
0
  6
Continuous
 62
     7
370
    25
100
AcDbLine
 10
185.2388293534
 20
-68.8167411399
 30
0.0
 11
95.2388257771
 21
-68.8167411399
 31
0.0
  0
INSERT
  5
93
330
1F
100
AcDbEntity
  8
FORMAT
 62
     7
100
AcDbBlockReference
  2
SW_CENTERMARKSYMBOL_0
 10
140.2388275653
 20
153.1832617212
 30
0.0
  0
LINE
  5
94
330
1F
100
AcDbEntity
  8
0
  6
Continuous
 62
     7
370
    25
100
AcDbLine
 10
252.738824585
 20
406.9019045698
 30
0.0
 11
252.738824585
 21
933.9019145834
 31
0.0
  0
LINE
  5
95
330
1F
100
AcDbEntity
  8
0
  6
Continuous
 62
     7
370
    25
100
AcDbLine
 10
27.7388305455
 20
933.9019145834
 30
0.0
 11
27.7388305455
 21
406.9019045698
 31
0.0
  0
CIRCLE
  5
96
330
1F
100
AcDbEntity
  8
0
  6
Continuous
 62
     7
370
    25
100
AcDbCircle
 10
140.2388275653
 20
670.4019095766
 30
0.0
 40
39.60000000000002
  0
CIRCLE
  5
97
330
1F
100
AcDbEntity
  8
0
  6
Continuous
 62
     7
370
    25
100
AcDbCircle
 10
140.2388275653
 20
670.4019095766
 30
0.0
 40
45.0
  0
LINE
  5
98
330
1F
100
AcDbEntity
  8
0
  6
Continuous
 62
     7
370
    25
100
AcDbLine
 10
140.2388275653
 20
933.9019145834
 30
0.0
 11
252.738824585
 21
933.9019145834
 31
0.0
  0
LINE
  5
99
330
1F
100
AcDbEntity
  8
0
  6
Continuous
 62
     7
370
    25
100
AcDbLine
 10
27.7388305455
 20
933.9019145834
 30
0.0
 11
140.2388275653
 21
933.9019145834
 31
0.0
  0
LINE
  5
9A
330
1F
100
AcDbEntity
  8
0
  6
Continuous
 62
     7
370
    25
100
AcDbLine
 10
140.2388275653
 20
406.9019045698
 30
0.0
 11
252.738824585
 21
406.9019045698
 31
0.0
  0
LINE
  5
9B
330
1F
100
AcDbEntity
  8
0
  6
Continuous
 62
     7
370
    25
100
AcDbLine
 10
27.7388305455
 20
406.9019045698
 30
0.0
 11
140.2388275653
 21
406.9019045698
 31
0.0
  0
INSERT
  5
A7
330
1F
100
AcDbEntity
  8
FORMAT
100
AcDbBlockReference
  2
SW_CENTERMARKSYMBOL_1
 10
140.2388275653
 20
670.4019095766
 30
0.0
  0
LINE
  5
A8
330
1F
100
AcDbEntity
  8
0
  6
Continuous
 62
     7
370
    25
100
AcDbLine
 10
-167.0626223736
 20
265.6832587409
 30
0.0
 11
-694.0626323872
 21
265.6832587409
 31
0.0
  0
LINE
  5
A9
330
1F
100
AcDbEntity
  8
0
  6
Continuous
 62
     7
370
    25
100
AcDbLine
 10
-385.6330447548
 20
40.6832647014
 30
0.0
 11
-167.0626223736
 21
40.6832647014
 31
0.0
  0
LINE
  5
AA
330
1F
100
AcDbEntity
  8
0
  6
Continuous
 62
     7
370
    25
100
AcDbLine
 10
-694.0626323872
 20
40.6832647014
 30
0.0
 11
-475.5626291686
 21
40.6832647014
 31
0.0
  0
LINE
  5
AB
330
1F
100
AcDbEntity
  8
0
  6
Continuous
 62
     7
370
    25
100
AcDbLine
 10
-475.5626291686
 20
40.6832647014
 30
0.0
 11
-475.5626291686
 21
-68.8167411399
 31
0.0
  0
LINE
  5
AC
330
1F
100
AcDbEntity
  8
0
  6
Continuous
 62
     7
370
    25
100
AcDbLine
 10
-385.5626255923
 20
-68.8167411399
 30
0.0
 11
-385.5626255923
 21
40.6832647014
 31
0.0
  0
LWPOLYLINE
  5
AD
330
1F
100
AcDbEntity
  8
0
  6
Continuous
 62
     7
370
    25
100
AcDbPolyline
 90
       25
 70
   128
 43
0.0
 10
-385.6330447548
 20
40.7113161373
 10
-386.0381700748
 20
40.8726361084
 10
-387.5706650966
 20
41.4713126111
 10
-390.1912950628
 20
42.4534332442
 10
-393.8053444677
 20
43.7193539429
 10
-398.4322257989
 20
45.1850545097
 10
-404.1063607388
 20
46.7352297592
 10
-410.7306719475
 20
48.1853735137
 10
-417.835263414
 20
49.2927607584
 10
-421.6849718892
 20
49.693505137
 10
-425.614696806
 20
49.9566596437
 10
-432.764889551
 20
50.0517961073
 10
-440.0701111832
 20
49.637901454
 10
-446.6292251551
 20
48.8310408282
 10
-452.9321052783
 20
47.6766553211
 10
-458.8354107642
 20
46.2692778993
 10
-464.1363256329
 20
44.7469082165
 10
-468.7004507237
 20
43.2480823684
 10
-470.6406526917
 20
42.5600883055
 10
-472.2801417761
 20
41.955563097
 10
-474.5098882073
 20
41.1002066422
 10
-475.1837783211
 20
40.8343699265
 10
-475.5216360741
 20
40.6996485281
 10
-475.5626291686
 20
40.6832647014
 10
-475.5626291686
 20
40.6832647014
  0
LINE
  5
AE
330
1F
100
AcDbEntity
  8
0
  6
Continuous
 62
     7
370
    25
100
AcDbLine
 10
-694.0626323872
 20
40.6832647014
 30
0.0
 11
-694.0626323872
 21
265.6832587409
 31
0.0
  0
LINE
  5
AF
330
1F
100
AcDbEntity
  8
0
  6
Continuous
 62
     7
370
    25
100
AcDbLine
 10
-167.0626223736
 20
40.6832647014
 30
0.0
 11
-167.0626223736
 21
265.6832587409
 31
0.0
  0
LINE
  5
B0
330
1F
100
AcDbEntity
  8
0
  6
Continuous
 62
     7
370
    25
100
AcDbLine
 10
-385.5626255923
 20
-68.8167411399
 30
0.0
 11
-475.5626291686
 21
-68.8167411399
 31
0.0
  0
LINE
  5
B1
330
1F
100
AcDbEntity
  8
0
  6
Continuous
 62
     7
370
    25
100
AcDbLine
 10
708.6541504149
 20
40.6832647014
 30
0.0
 11
927.1541536335
 21
40.6832647014
 31
0.0
  0
LINE
  5
B2
330
1F
100
AcDbEntity
  8
0
  6
Continuous
 62
     7
370
    25
100
AcDbLine
 10
400.1541436199
 20
40.6832647014
 30
0.0
 11
618.7245660011
 21
40.6832647014
 31
0.0
  0
LINE
  5
B3
330
1F
100
AcDbEntity
  8
0
  6
Continuous
 62
     7
370
    25
100
AcDbLine
 10
927.1541536335
 20
265.6832587409
 30
0.0
 11
400.1541436199
 21
265.6832587409
 31
0.0
  0
LINE
  5
B4
330
1F
100
AcDbEntity
  8
0
  6
Continuous
 62
     7
370
    25
100
AcDbLine
 10
618.6541468386
 20
40.7112267304
 30
0.0
 11
618.6541468386
 21
-68.8167411399
 31
0.0
  0
LINE
  5
B5
330
1F
100
AcDbEntity
  8
0
  6
Continuous
 62
     7
370
    25
100
AcDbLine
 10
708.6541504149
 20
-68.8167411399
 30
0.0
 11
708.6541504149
 21
40.6832647014
 31
0.0
  0
SPLINE
  5
B6
330
1F
100
AcDbEntity
  8
0
  6
Continuous
 62
     7
370
    25
100
AcDbSpline
210
0.0
220
0.0
230
1.0
 70
     8
 71
     3
 72
    30
 73
    26
 74
     0
 42
0.000000001
 43
0.00000001
 40
0.0
 40
0.0
 40
0.0
 40
0.0
 40
0.050123553754344
 40
0.1017676304901211
 40
0.1518741421289282
 40
0.2033241523471354
 40
0.2555925132504118
 40
0.309248415849163
 40
0.3637074235483588
 40
0.3917087294226794
 40
0.4199467852391791
 40
0.4718622161731862
 40
0.4986023949563562
 40
0.5255746257884235
 40
0.573999847410538
 40
0.6237820448868644
 40
0.6732812604707519
 40
0.724021303060937
 40
0.7772909532885905
 40
0.8320402021780118
 40
0.886224713551312
 40
0.9141099808716977
 40
0.942236559387504
 40
0.993213183713504
 40
1.0
 40
1.0
 40
1.0
 40
1.0
 10
708.6541504148695
 20
40.68326470138341
 30
0.0
 10
708.543813769054
 20
40.72762869596316
 30
0.0
 10
708.3197933602878
 20
40.81770248900632
 30
0.0
 10
706.5255468316217
 20
41.5244106052336
 30
0.0
 10
703.7110004986747
 20
42.58169598812265
 30
0.0
 10
699.8629287561596
 20
43.927950242379
 30
0.0
 10
694.9974023399328
 20
45.45678263755336
 30
0.0
 10
689.1828430136165
 20
47.02005614900329
 30
0.0
 10
683.6142603639357
 20
48.20622151641188
 30
0.0
 10
678.7841744919766
 20
48.99308177023013
 30
0.0
 10
673.8955955671516
 20
49.61760168811453
 30
0.0
 10
668.8669221165401
 20
49.99626576708999
 30
0.0
 10
663.8412349111242
 20
50.09889213179035
 30
0.0
 10
658.9787574422863
 20
50.01744029649592
 30
0.0
 10
653.0812695221871
 20
49.60887550982596
 30
0.0
 10
646.4201882439417
 20
48.71053287606627
 30
0.0
 10
640.1225701622378
 20
47.47863518457137
 30
0.0
 10
634.2960094021863
 20
46.02158940657355
 30
0.0
 10
629.0553765775034
 20
44.45801980143651
 30
0.0
 10
624.6572999948837
 20
42.96675356317757
 30
0.0
 10
621.8770028919578
 20
41.93841091220612
 30
0.0
 10
620.2440104321743
 20
41.31108726113023
 30
0.0
 10
619.1441304159225
 20
40.87983572189152
 30
0.0
 10
618.5070127843292
 20
40.62465840962716
 30
0.0
 10
618.7016924482198
 20
40.7022049407844
 30
0.0
 10
618.7245660011026
 20
40.71131613733083
 30
0.0
  0
LINE
  5
B7
330
1F
100
AcDbEntity
  8
0
  6
Continuous
 62
     7
370
    25
100
AcDbLine
 10
927.1541536335
 20
265.6832587409
 30
0.0
 11
927.1541536335
 21
40.6832647014
 31
0.0
  0
LINE
  5
B8
330
1F
100
AcDbEntity
  8
0
  6
Continuous
 62
     7
370
    25
100
AcDbLine
 10
400.1541436199
 20
265.6832587409
 30
0.0
 11
400.1541436199
 21
40.6832647014
 31
0.0
  0
LINE
  5
B9
330
1F
100
AcDbEntity
  8
0
  6
Continuous
 62
     7
370
    25
100
AcDbLine
 10
708.6541504149
 20
-68.8167411399
 30
0.0
 11
618.6541468386
 21
-68.8167411399
 31
0.0
  0
LINE
  5
BA
330
1F
100
AcDbEntity
  8
0
  6
Continuous
 62
     7
370
    25
100
AcDbLine
 10
27.7388305455
 20
-159.6461075163
 30
0.0
 11
27.7388305455
 21
-686.6461175299
 31
0.0
  0
LINE
  5
BB
330
1F
100
AcDbEntity
  8
0
  6
Continuous
 62
     7
370
    25
100
AcDbLine
 10
252.738824585
 20
-686.6461175299
 30
0.0
 11
252.738824585
 21
-159.6461075163
 31
0.0
  0
LINE
  5
BC
330
1F
100
AcDbEntity
  8
0
  6
Continuous
 62
     7
370
    25
100
AcDbLine
 10
252.738824585
 20
-686.6461175299
 30
0.0
 11
27.7388305455
 21
-686.6461175299
 31
0.0
  0
LINE
  5
BD
330
1F
100
AcDbEntity
  8
0
  6
Continuous
 62
     7
370
    25
100
AcDbLine
 10
252.738824585
 20
-159.6461075163
 30
0.0
 11
27.7388305455
 21
-159.6461075163
 31
0.0
  0
LINE
  5
BE
330
1F
100
AcDbEntity
  8
0
  6
Continuous
 62
     7
370
    25
100
AcDbLine
 10
907.3556307647
 20
-365.7329853386
 30
0.0
 11
534.7103499988
 21
-150.6094437858
 31
0.0
  0
LINE
  5
BF
330
1F
100
AcDbEntity
  8
0
  6
Continuous
 62
     7
370
    25
100
AcDbLine
 10
422.2194946292
 20
-345.4704427181
 30
0.0
 11
619.7875635198
 21
-459.5240611891
 31
0.0
  0
LINE
  5
C0
330
1F
100
AcDbEntity
  8
0
  6
Continuous
 62
     7
370
    25
100
AcDbLine
 10
709.7875684596
 20
-511.4799581285
 30
0.0
 11
794.8647753952
 21
-560.593984271
 31
0.0
  0
LINE
  5
C1
330
1F
100
AcDbEntity
  8
0
  6
Continuous
 62
     7
370
    25
100
AcDbLine
 10
619.7875622027
 20
-443.7088411803
 30
0.0
 11
619.7875622027
 21
-536.8737766031
 31
0.0
  0
LINE
  5
C2
330
1F
100
AcDbEntity
  8
0
  6
Continuous
 62
     7
370
    25
100
AcDbLine
 10
709.7875631912
 20
-536.8737766031
 30
0.0
 11
709.7875631912
 21
-443.7123271422
 31
0.0
  0
SPLINE
  5
C3
330
1F
100
AcDbEntity
  8
0
  6
Continuous
 62
     7
370
    25
100
AcDbSpline
210
0.0
220
0.0
230
1.0
 70
     8
 71
     3
 72
    12
 73
     8
 74
     0
 42
0.000000001
 43
0.00000001
 40
0.0
 40
0.0
 40
0.0
 40
0.0
 40
0.2005898785504702
 40
0.4072647510276215
 40
0.6077864285901378
 40
0.813684664610488
 40
1.0
 40
1.0
 40
1.0
 40
1.0
 10
632.9677562791829
 20
-429.0933696860881
 30
0.0
 10
631.3576155314493
 20
-430.0769536269266
 30
0.0
 10
628.0884896140108
 20
-432.0739590176028
 30
0.0
 10
624.3858232122263
 20
-435.0959315304702
 30
0.0
 10
621.6836833333316
 20
-438.1027578445839
 30
0.0
 10
620.05435301727
 20
-440.96407675219
 30
0.0
 10
619.9126814308902
 20
-442.8263285148053
 30
0.0
 10
619.8453824105206
 20
-443.7109640476456
 30
0.0
  0
SPLINE
  5
C4
330
1F
100
AcDbEntity
  8
0
  6
Continuous
 62
     7
370
    25
100
AcDbSpline
210
0.0
220
0.0
230
1.0
 70
     8
 71
     3
 72
    25
 73
    21
 74
     0
 42
0.000000001
 43
0.00000001
 40
0.0
 40
0.0
 40
0.0
 40
0.0
 40
0.0672665391734104
 40
0.1407532524770435
 40
0.2127043971825593
 40
0.2497605104276988
 40
0.287148119051516
 40
0.3539562984214843
 40
0.4228723058931697
 40
0.4872160556267877
 40
0.553239099872867
 40
0.6213043926102325
 40
0.691109986008116
 40
0.7634575588008068
 40
0.8006065611180385
 40
0.8380495928527071
 40
0.9088421874234682
 40
0.945294023213539
 40
0.9820631031878403
 40
1.0
 40
1.0
 40
1.0
 40
1.0
 10
709.7530580932059
 20
-443.7137945970582
 30
0.0
 10
709.660290282039
 20
-441.9527577150586
 30
0.0
 10
709.4661763688309
 20
-438.2678398953017
 30
0.0
 10
707.5843722146521
 20
-432.9012251728611
 30
0.0
 10
705.0022016121567
 20
-428.6934072252705
 30
0.0
 10
702.3121764948044
 20
-425.6875920016374
 30
0.0
 10
699.3422928566398
 20
-423.0648397015372
 30
0.0
 10
695.086713438979
 20
-420.3833247643088
 30
0.0
 10
689.3987220022132
 20
-418.2007568072911
 30
0.0
 10
683.160109257038
 20
-416.9456458580689
 30
0.0
 10
676.552416437718
 20
-416.5481956257232
 30
0.0
 10
669.5080180531211
 20
-416.9535647159641
 30
0.0
 10
662.1377643955707
 20
-418.1174997812924
 30
0.0
 10
655.8923852683197
 20
-419.6588813138598
 30
0.0
 10
650.9068093347254
 20
-421.1947944109957
 30
0.0
 10
646.095605674427
 20
-422.8747788800089
 30
0.0
 10
641.5260335286497
 20
-424.7474267667383
 30
0.0
 10
637.3264194114163
 20
-426.7367759070824
 30
0.0
 10
634.82506355741
 20
-428.0376179392284
 30
0.0
 10
633.4263605076184
 20
-428.8326846497649
 30
0.0
 10
632.9677562791829
 20
-429.0933696860881
 30
0.0
  0
LWPOLYLINE
  5
C5
330
1F
100
AcDbEntity
  8
0
  6
Continuous
 62
     7
370
    25
100
AcDbPolyline
 90
      113
 70
   128
 43
0.0
 10
478.464922314
 20
-339.9007821556
 10
482.9252989258
 20
-337.1813492622
 10
487.371641954
 20
-334.1814434099
 10
491.7899606208
 20
-330.9105040523
 10
496.16635371
 20
-327.378825412
 10
500.4870523731
 20
-323.597513518
 10
504.7384616172
 20
-319.5784683389
 10
508.9072037692
 20
-315.3343404405
 10
512.9801619397
 20
-310.8784754762
 10
516.9445234866
 20
-306.2249012632
 10
520.7878155769
 20
-301.3882524999
 10
524.4979420653
 20
-296.3837555603
 10
528.0632335428
 20
-291.2271448474
 10
531.4724657771
 20
-285.9346582328
 10
534.7149229318
 20
-280.5229336389
 10
537.7803949329
 20
-275.0090044765
 10
540.6592354205
 20
-269.4102296872
 10
543.3423933587
 20
-263.744208575
 10
545.8214183046
 20
-258.0287808064
 10
548.0885183594
 20
-252.2819199511
 10
550.1365549007
 20
-246.5217152305
 10
551.9590899975
 20
-240.7662863504
 10
553.5503811415
 20
-235.033743956
 10
554.9054286629
 20
-229.3421211953
 10
556.0199651933
 20
-223.7093296108
 10
556.8904820075
 20
-218.1530937423
 10
557.5142448287
 20
-212.6908918124
 10
557.8892885602
 20
-207.3399108584
 10
558.0144330901
 20
-202.1169881784
 10
557.8892885602
 20
-197.0385542973
 10
557.5142448287
 20
-192.1205896186
 10
556.8904820075
 20
-187.3785689126
 10
556.0199651933
 20
-182.8274103641
 10
554.9054286629
 20
-178.4814352669
 10
553.5503811415
 20
-174.354317073
 10
551.9590899975
 20
-170.4590403262
 10
550.1365549007
 20
-166.8078656784
 10
548.0885183594
 20
-163.4122736163
 10
545.8214183046
 20
-160.2829507684
 10
543.3423933587
 20
-157.4297442782
 10
540.6592354205
 20
-154.8616313807
 10
537.7803949329
 20
-152.5866950685
 10
534.7149229318
 20
-150.612084542
 10
531.4724657771
 20
-148.9440212929
 10
528.0632335428
 20
-147.5877504312
 10
524.4979420653
 20
-146.5475376384
 10
520.7878155769
 20
-145.8266615627
 10
516.9445234866
 20
-145.4273833949
 10
512.9801619397
 20
-145.3509635965
 10
508.9072037692
 20
-145.5976360394
 10
504.7384616172
 20
-146.1666353795
 10
500.4870523731
 20
-147.0561628317
 10
496.16635371
 20
-148.2634234293
 10
491.7899606208
 20
-149.7846206963
 10
487.371641954
 20
-151.6149634876
 10
482.9252989258
 20
-153.7486960232
 10
478.464922314
 20
-156.1791043483
 10
474.0045457022
 20
-158.8985372416
 10
469.5582026739
 20
-161.898443094
 10
465.1398840072
 20
-165.1693824515
 10
460.763490918
 20
-168.7010610918
 10
456.4427922549
 20
-172.4823729858
 10
452.1913830108
 20
-176.5014181649
 10
448.0226408587
 20
-180.7455460634
 10
443.9496826883
 20
-185.2014110277
 10
439.9853211414
 20
-189.8549852407
 10
436.142029051
 20
-194.6916340039
 10
432.4319025627
 20
-199.6961309436
 10
428.8666110851
 20
-204.8527416564
 10
425.4573788509
 20
-210.1452282711
 10
422.2149216962
 20
-215.556952865
 10
419.1494496951
 20
-221.0708820274
 10
416.2706092075
 20
-226.6696568166
 10
413.5874512693
 20
-232.3356779288
 10
411.1084263234
 20
-238.0511056974
 10
408.8413262686
 20
-243.7979665527
 10
406.7932897273
 20
-249.5581712733
 10
404.9707546305
 20
-255.3136001535
 10
403.3794634865
 20
-261.0461425478
 10
402.0244159651
 20
-266.7377653085
 10
400.9098794347
 20
-272.370556893
 10
400.0393626205
 20
-277.9267927615
 10
399.4155997993
 20
-283.3889946915
 10
399.0405560678
 20
-288.7399756455
 10
398.9154115378
 20
-293.9628983254
 10
399.0405560678
 20
-299.0413322066
 10
399.4155997993
 20
-303.9592968852
 10
400.0393626205
 20
-308.7013175913
 10
400.9098794347
 20
-313.2524761398
 10
402.0244159651
 20
-317.598451237
 10
403.3794634865
 20
-321.7255694309
 10
404.9707546305
 20
-325.6208461776
 10
406.7932897273
 20
-329.2720208254
 10
408.8413262686
 20
-332.6676128875
 10
411.1084263234
 20
-335.7969357354
 10
413.5874512693
 20
-338.6501422256
 10
416.2706092075
 20
-341.2182551231
 10
419.1494496951
 20
-343.4931914354
 10
422.2149216962
 20
-345.4678019618
 10
425.4573788509
 20
-347.135865211
 10
428.8666110851
 20
-348.4921360727
 10
432.4319025627
 20
-349.5323488655
 10
436.142029051
 20
-350.2532249411
 10
439.9853211414
 20
-350.6525031089
 10
443.9496826883
 20
-350.7289229074
 10
448.0226408587
 20
-350.4822504644
 10
452.1913830108
 20
-349.9132511244
 10
456.4427922549
 20
-349.0237236722
 10
460.763490918
 20
-347.8164630745
 10
465.1398840072
 20
-346.2952658075
 10
469.5582026739
 20
-344.4649230163
 10
474.0045457022
 20
-342.3311904807
 10
478.464922314
 20
-339.9007821556
  0
LWPOLYLINE
  5
C6
330
1F
100
AcDbEntity
  8
0
  6
Continuous
 62
     7
370
    25
100
AcDbPolyline
 90
       44
 70
   128
 43
0.0
 10
851.11020308
 20
-555.0243237085
 10
855.5705796917
 20
-552.3048908151
 10
860.01692272
 20
-549.3049849627
 10
864.4352413868
 20
-546.0340456052
 10
868.811634476
 20
-542.5023669649
 10
873.1323331391
 20
-538.7210550709
 10
877.3837423832
 20
-534.7020098918
 10
881.5524845352
 20
-530.4578819934
 10
885.6254427057
 20
-526.0020170291
 10
889.5898042526
 20
-521.3484428161
 10
893.4330963429
 20
-516.5117940528
 10
897.1432228312
 20
-511.5072971131
 10
900.7085143088
 20
-506.3506864003
 10
904.1177465431
 20
-501.0581997857
 10
907.3602036978
 20
-495.6464751918
 10
910.4256756989
 20
-490.1325460293
 10
913.3045161864
 20
-484.5337712401
 10
915.9876741247
 20
-478.8677501279
 10
918.4666990705
 20
-473.1523223593
 10
920.7337991254
 20
-467.405461504
 10
922.7818356667
 20
-461.6452567834
 10
924.6043707634
 20
-455.8898279033
 10
926.1956619075
 20
-450.1572855089
 10
927.5507094289
 20
-444.4656627482
 10
928.6652459592
 20
-438.8328711637
 10
929.5357627735
 20
-433.2766352952
 10
930.1595255947
 20
-427.8144333652
 10
930.5345693262
 20
-422.4634524112
 10
930.6597138561
 20
-417.2405297313
 10
930.5345693262
 20
-412.1620958501
 10
930.1595255947
 20
-407.2441311715
 10
929.5357627735
 20
-402.5021104654
 10
928.6652459592
 20
-397.950951917
 10
927.5507094289
 20
-393.6049768198
 10
926.1956619075
 20
-389.4778586259
 10
924.6043707634
 20
-385.5825818791
 10
922.7818356667
 20
-381.9314072313
 10
920.7337991254
 20
-378.5358151692
 10
918.4666990705
 20
-375.4064923213
 10
915.9876741247
 20
-372.5532858311
 10
913.3045161864
 20
-369.9851729336
 10
910.4256756989
 20
-367.7102366214
 10
907.3602036978
 20
-365.7356260949
 10
907.3556307647
 20
-365.7329853386
  0
LWPOLYLINE
  5
C7
330
1F
100
AcDbEntity
  8
0
  6
Continuous
 62
     7
370
    25
100
AcDbPolyline
 90
       15
 70
   128
 43
0.0
 10
794.8647753952
 20
-560.593984271
 10
798.1026596169
 20
-562.2594067639
 10
801.5118918511
 20
-563.6156776255
 10
805.0771833287
 20
-564.6558904183
 10
808.787309817
 20
-565.376766494
 10
812.6306019074
 20
-565.7760446618
 10
816.5949634543
 20
-565.8524644603
 10
820.6679216247
 20
-565.6057920173
 10
824.8366637768
 20
-565.0367926773
 10
829.0880730209
 20
-564.147265225
 10
833.408771684
 20
-562.9400046274
 10
837.7851647732
 20
-561.4188073604
 10
842.2034834399
 20
-559.5884645691
 10
846.6498264682
 20
-557.4547320336
 10
851.11020308
 20
-555.0243237085
  0
LWPOLYLINE
  5
C8
330
1F
100
AcDbEntity
  8
0
  6
Continuous
 62
     7
370
    25
100
AcDbPolyline
 90
      106
 70
   128
 43
0.0
 10
478.464922314
 20
-328.959138654
 10
482.6556555721
 20
-326.3950451191
 10
486.8313871862
 20
-323.5504595228
 10
490.9771678669
 20
-320.4355693343
 10
495.07815896
 20
-317.0615202165
 10
499.1196795327
 20
-313.4403888437
 10
503.0872613622
 20
-309.58513899
 10
506.9666996435
 20
-305.5095800892
 10
510.7441109413
 20
-301.2282911936
 10
514.4059713856
 20
-296.7566050078
 10
517.9391706722
 20
-292.110521962
 10
521.3310621125
 20
-287.3066813184
 10
524.569507414
 20
-282.3622683993
 10
527.642908291
 20
-277.2949963391
 10
530.5402617817
 20
-272.1230011452
 10
533.2511997615
 20
-266.8647915116
 10
535.7660231868
 20
-261.5391925475
 10
538.0757179004
 20
-256.1652697327
 10
540.17202312
 20
-250.7622620032
 10
542.0474314382
 20
-245.3495117886
 10
543.6952309694
 20
-239.94638897
 10
545.1095264231
 20
-234.57223917
 10
546.2852496408
 20
-229.2463001035
 10
547.218191206
 20
-223.9876392218
 10
547.9050162493
 20
-218.8150776687
 10
548.3432644485
 20
-213.7471340056
 10
548.531360565
 20
-208.8019525392
 10
548.4686460545
 20
-203.9972278483
 10
548.155331651
 20
-199.3501675169
 10
547.5925447828
 20
-194.8774027842
 10
546.782297962
 20
-190.5949472862
 10
545.7274887843
 20
-186.5181314664
 10
544.4319051978
 20
-182.6615428792
 10
542.9001728191
 20
-179.0389950068
 10
541.1377760068
 20
-175.6634542559
 10
539.1510315199
 20
-172.547000412
 10
536.9470463707
 20
-169.7007916534
 10
534.5337072883
 20
-167.1350189229
 10
531.9196543765
 20
-164.8588663811
 10
529.1142547725
 20
-162.8804749017
 10
526.1275394262
 20
-161.2069329401
 10
522.9702031004
 20
-159.8442339475
 10
519.6535516873
 20
-158.7972520308
 10
516.189454793
 20
-158.0697328232
 10
512.5903141277
 20
-157.6642873969
 10
508.8690134561
 20
-157.5823603195
 10
505.0388738167
 20
-157.8242494214
 10
501.113606106
 20
-158.3890844987
 10
497.1072636638
 20
-159.2748486015
 10
493.0341843211
 20
-160.4783689032
 10
488.9089522048
 20
-161.9953387499
 10
484.746332541
 20
-163.820324879
 10
480.5612272043
 20
-165.9467930806
 10
476.3686174237
 20
-168.3671351886
 10
472.183512087
 20
-171.0726867563
 10
468.0208924232
 20
-174.0537589911
 10
463.8956603068
 20
-177.299680765
 10
459.8225809642
 20
-180.798837773
 10
455.816238522
 20
-184.5386981947
 10
451.8909708113
 20
-188.5058807495
 10
448.0608311719
 20
-192.6861767464
 10
444.3395305003
 20
-197.0646261252
 10
440.740389835
 20
-201.6255509117
 10
437.2762929407
 20
-206.3526312605
 10
433.9596415275
 20
-211.2289373893
 10
430.8023052018
 20
-216.2370193096
 10
427.8155898555
 20
-221.358949409
 10
425.0101902515
 20
-226.5763863261
 10
422.3961373397
 20
-231.8706601174
 10
419.9827982572
 20
-237.2228148427
 10
417.7788131081
 20
-242.6136906898
 10
415.7920686212
 20
-248.0239908923
 10
414.0296718089
 20
-253.4343516902
 10
412.4979394302
 20
-258.8254001236
 10
411.2023558437
 20
-264.1778376796
 10
410.147546666
 20
-269.4725102533
 10
409.3372998452
 20
-274.6904568181
 10
408.774512977
 20
-279.8130014379
 10
408.4611985735
 20
-284.8218068795
 10
408.3984840629
 20
-289.698940203
 10
408.5865801795
 20
-294.4269505159
 10
409.0248283787
 20
-298.9889035786
 10
409.711653422
 20
-303.3684738159
 10
410.6445949872
 20
-307.5499832942
 10
411.8203182049
 20
-311.518461228
 10
413.2346136586
 20
-315.2597002546
 10
414.8824131898
 20
-318.7603142306
 10
416.757821508
 20
-322.0077640907
 10
418.8541267275
 20
-324.9904293321
 10
421.1638214412
 20
-327.6976353933
 10
423.6786448665
 20
-330.1196810344
 10
426.3895828462
 20
-332.2479083001
 10
429.286936337
 20
-334.0746903584
 10
432.360337214
 20
-335.5934892974
 10
435.5987825155
 20
-336.7988728588
 10
438.9906739558
 20
-337.686519004
 10
442.5238732424
 20
-338.2532569848
 10
446.1857336867
 20
-338.4970490949
 10
449.9631449845
 20
-338.4170317391
 10
453.8425832658
 20
-338.0134865407
 10
457.8101650953
 20
-337.2878639206
 10
461.851685668
 20
-336.2427549639
 10
465.9526767611
 20
-334.8819005509
 10
470.0984574418
 20
-333.2101742515
 10
474.2741890559
 20
-331.2335627481
 10
478.464922314
 20
-328.959138654
  0
LWPOLYLINE
  5
C9
330
1F
100
AcDbEntity
  8
0
  6
Continuous
 62
     7
370
    25
100
AcDbPolyline
 90
       67
 70
   128
 43
0.0
 10
692.7889910802
 20
-553.0386571296
 10
695.3239025826
 20
-551.4288911798
 10
697.5822734653
 20
-549.6873124278
 10
699.5436518056
 20
-547.8296934475
 10
701.1902705664
 20
-545.8728541797
 10
702.5072219466
 20
-543.8345187038
 10
703.4825777294
 20
-541.7331453971
 10
704.1075074915
 20
-539.5877644117
 10
704.3763477502
 20
-537.4178054583
 10
704.2866671591
 20
-535.2429202666
 10
703.8392744109
 20
-533.0828046658
 10
703.0382248226
 20
-530.9570199054
 10
701.8907716036
 20
-528.8848185367
 10
700.4073046104
 20
-526.8849661141
 10
698.6012621023
 20
-524.9755731594
 10
696.4889970566
 20
-523.1739328297
 10
694.0896372277
 20
-521.4963610562
 10
691.4249139258
 20
-519.958049038
 10
688.5189595145
 20
-518.5729280919
 10
685.3980887738
 20
-517.3535434363
 10
682.0905647875
 20
-516.3109372889
 10
678.6263434283
 20
-515.4545500224
 10
675.0367964394
 20
-514.7921393789
 10
671.3544302362
 20
-514.3297032948
 10
667.6125948299
 20
-514.0714289588
 10
663.8451749693
 20
-514.0196574555
 10
660.0862885286
 20
-514.1748556334
 10
656.3699769902
 20
-514.535619906
 10
652.729897247
 20
-515.0986808143
 10
649.1990140615
 20
-515.8589406635
 10
645.8093017449
 20
-516.8095134406
 10
642.5914626303
 20
-517.9417930552
 10
639.5746328668
 20
-519.2455228151
 10
636.7861343137
 20
-520.7088960766
 10
634.2512228114
 20
-522.3186620265
 10
631.9928519286
 20
-524.0602407784
 10
630.0314735884
 20
-525.9178597588
 10
628.3848548275
 20
-527.8746990266
 10
627.0679034474
 20
-529.9130345025
 10
626.0925476646
 20
-532.0144078092
 10
625.4676179025
 20
-534.1597887946
 10
625.1987776438
 20
-536.329747748
 10
625.2884582349
 20
-538.5046329397
 10
625.7358509831
 20
-540.6647485404
 10
626.5369005713
 20
-542.7905333009
 10
627.6843537904
 20
-544.8627346696
 10
629.1678207836
 20
-546.8625870922
 10
630.9738632917
 20
-548.7719800469
 10
633.0861283374
 20
-550.5736203765
 10
635.4854881663
 20
-552.25119215
 10
638.1502114682
 20
-553.7895041683
 10
641.0561658794
 20
-555.1746251144
 10
644.1770366202
 20
-556.39400977
 10
647.4845606065
 20
-557.4366159174
 10
650.9487819657
 20
-558.2930031838
 10
654.5383289546
 20
-558.9554138274
 10
658.2206951577
 20
-559.4178499115
 10
661.9625305641
 20
-559.6761242475
 10
665.7299504246
 20
-559.7278957507
 10
669.4888368654
 20
-559.5726975729
 10
673.2051484037
 20
-559.2119333003
 10
676.8452281469
 20
-558.648872392
 10
680.3761113325
 20
-557.8886125428
 10
683.765823649
 20
-556.9380397657
 10
686.9836627637
 20
-555.8057601511
 10
690.0004925271
 20
-554.5020303912
 10
692.7889910802
 20
-553.0386571296
  0
LWPOLYLINE
  5
CA
330
1F
100
AcDbEntity
  8
0
  6
Continuous
 62
     7
370
    25
100
AcDbPolyline
 90
       72
 70
   128
 43
0.0
 10
696.6073691148
 20
-555.2429598491
 10
699.2950891201
 20
-553.5476071607
 10
701.7127419984
 20
-551.7217593384
 10
703.8414054609
 20
-549.7797067692
 10
705.6644206366
 20
-547.7366473053
 10
707.1675175245
 20
-545.6085712623
 10
708.338932544
 20
-543.4121327323
 10
709.1695007313
 20
-541.1645233671
 10
709.652722252
 20
-538.8833336165
 10
709.7848104752
 20
-536.586415487
 10
709.5647341203
 20
-534.2917472016
 10
708.9942172567
 20
-532.0172856935
 10
708.0777208649
 20
-529.7808343076
 10
706.822421763
 20
-527.5998937736
 10
705.2381434595
 20
-525.4915340891
 10
703.3372843717
 20
-523.4722557576
 10
701.134719703
 20
-521.5578631918
 10
698.6476914658
 20
-519.763337357
 10
695.8956593209
 20
-518.1027253319
 10
692.9001672226
 20
-516.5890207448
 10
689.6846537579
 20
-515.2340725334
 10
686.2742881686
 20
-514.0484841996
 10
682.6957599464
 20
-513.0415349242
 10
678.9770723794
 20
-512.2211060043
 10
675.1473357692
 20
-511.5936162243
 10
671.2365191592
 20
-511.1639788969
 10
667.275231698
 20
-510.9355547216
 10
663.29447371
 20
-510.910132777
 10
659.3254009357
 20
-511.0879115115
 10
655.3990795538
 20
-511.4675002646
 10
651.5462319826
 20
-512.0459261095
 10
647.7970169264
 20
-512.8186650276
 10
644.1807791286
 20
-513.7796677591
 10
640.7258149295
 20
-514.9214130278
 10
637.4591641667
 20
-516.2349638054
 10
634.4063992758
 20
-517.7100434409
 10
631.5914063247
 20
-519.3351042812
 10
629.0362165906
 20
-521.0974279406
 10
626.7608333629
 20
-522.9832252857
 10
624.7830582522
 20
-524.9777336635
 10
623.1183723228
 20
-527.0653433082
 10
621.7798042192
 20
-529.2297190901
 10
620.7778327015
 20
-531.4539206494
 10
620.1202944496
 20
-533.7205377369
 10
619.8123392813
 20
-536.0118346779
 10
619.8563761525
 20
-538.3098773492
 10
620.2520613031
 20
-540.5966799245
 10
620.9962956224
 20
-542.8543462977
 10
622.0832575772
 20
-545.0652061833
 10
623.5044361381
 20
-547.2119588208
 10
625.2487124396
 20
-549.2777991908
 10
627.3024341957
 20
-551.2465613393
 10
629.6495276519
 20
-553.1028377505
 10
632.2716250141
 20
-554.8320985305
 10
635.1482010964
 20
-556.420812871
 10
638.2567478352
 20
-557.856543712
 10
641.5729323403
 20
-559.1280572303
 10
645.0708040068
 20
-560.225399824
 10
648.7229858224
 20
-561.1399842212
 10
652.5008949798
 20
-561.8646529677
 10
656.3749621722
 20
-562.3937350728
 10
660.3148719615
 20
-562.7230874477
 10
664.2897847085
 20
-562.8501348232
 10
668.2685947219
 20
-562.773881915
 10
672.2201594319
 20
-562.4949240689
 10
676.1135549055
 20
-562.0154472603
 10
679.9183102884
 20
-561.3392037638
 10
683.6046455392
 20
-560.4714844003
 10
687.1437117989
 20
-559.4190801405
 10
690.5078100267
 20
-558.1902288804
 10
693.6706139183
 20
-556.7945475817
 10
696.6073691148
 20
-555.2429598491
  0
ENDSEC
  0
SECTION
  2
OBJECTS
  0
DICTIONARY
  5
C
330
0
100
AcDbDictionary
281
     1
  3
ACAD_GROUP
350
D
  3
ACAD_LAYOUT
350
1A
  3
ACAD_MLINESTYLE
350
17
  3
ACAD_PLOTSETTINGS
350
19
  3
ACAD_PLOTSTYLENAME
350
E
  3
ACAD_SCALELIST
350
47
  0
DICTIONARY
  5
D
102
{ACAD_REACTORS
330
C
102
}
330
C
100
AcDbDictionary
281
     1
  0
DICTIONARY
  5
1A
102
{ACAD_REACTORS
330
C
102
}
330
C
100
AcDbDictionary
281
     1
  3
Layout1
350
1E
  3
Layout2
350
26
  3
Model
350
22
  0
DICTIONARY
  5
17
102
{ACAD_REACTORS
330
C
102
}
330
C
100
AcDbDictionary
281
     1
  3
Standard
350
18
  0
DICTIONARY
  5
19
102
{ACAD_REACTORS
330
C
102
}
330
C
100
AcDbDictionary
281
     1
  0
ACDBDICTIONARYWDFLT
  5
E
102
{ACAD_REACTORS
330
C
102
}
330
C
100
AcDbDictionary
281
     1
  3
Normal
350
F
100
AcDbDictionaryWithDefault
340
F
  0
DICTIONARY
  5
47
102
{ACAD_REACTORS
330
C
102
}
330
C
100
AcDbDictionary
281
     1
  3
A0
350
48
  3
A1
350
49
  3
A2
350
4A
  3
A3
350
4B
  3
A4
350
4C
  3
A5
350
4D
  3
A6
350
4E
  3
A7
350
4F
  3
A8
350
50
  3
A9
350
51
  3
B0
350
52
  3
B1
350
53
  3
B2
350
54
  3
B3
350
55
  3
B4
350
56
  3
B5
350
57
  3
B6
350
58
  3
B7
350
59
  3
B8
350
5A
  3
B9
350
5B
  3
C0
350
5C
  3
C1
350
5D
  3
C2
350
5E
  3
C3
350
5F
  3
C4
350
60
  3
C5
350
61
  3
C6
350
62
  3
C7
350
63
  3
C8
350
64
  3
C9
350
65
  3
D0
350
66
  3
D1
350
67
  3
D2
350
68
  0
LAYOUT
  5
1E
102
{ACAD_REACTORS
330
1A
102
}
330
1A
100
AcDbPlotSettings
  1

  2
none_device
  4

  6

 40
0.0
 41
0.0
 42
0.0
 43
0.0
 44
0.0
 45
0.0
 46
0.0
 47
0.0
 48
0.0
 49
0.0
140
0.0
141
0.0
142
1.0
143
1.0
 70
   688
 72
     1
 73
     0
 74
     5
  7

 75
    16
147
1.0
148
0.0
149
0.0
100
AcDbLayout
  1
Layout1
 70
     1
 71
     1
 10
0.0
 20
0.0
 11
420.0
 21
297.0
 12
0.0
 22
0.0
 32
0.0
 14
1.0000000000E+20
 24
1.0000000000E+20
 34
1.0000000000E+20
 15
-1.0000000000E+20
 25
-1.0000000000E+20
 35
-1.0000000000E+20
146
0.0
 13
0.0
 23
0.0
 33
0.0
 16
1.0
 26
0.0
 36
0.0
 17
0.0
 27
1.0
 37
0.0
 76
     0
330
1B
  0
LAYOUT
  5
26
102
{ACAD_REACTORS
330
1A
102
}
330
1A
100
AcDbPlotSettings
  1

  2
none_device
  4

  6

 40
0.0
 41
0.0
 42
0.0
 43
0.0
 44
0.0
 45
0.0
 46
0.0
 47
0.0
 48
0.0
 49
0.0
140
0.0
141
0.0
142
1.0
143
1.0
 70
   688
 72
     1
 73
     0
 74
     5
  7

 75
    16
147
1.0
148
0.0
149
0.0
100
AcDbLayout
  1
Layout2
 70
     1
 71
     2
 10
0.0
 20
0.0
 11
0.0
 21
0.0
 12
0.0
 22
0.0
 32
0.0
 14
0.0
 24
0.0
 34
0.0
 15
0.0
 25
0.0
 35
0.0
146
0.0
 13
0.0
 23
0.0
 33
0.0
 16
1.0
 26
0.0
 36
0.0
 17
0.0
 27
1.0
 37
0.0
 76
     0
330
23
  0
LAYOUT
  5
22
102
{ACAD_REACTORS
330
1A
102
}
330
1A
100
AcDbPlotSettings
  1

  2
none_device
  4
Letter_(8.50_x_11.00_Inches)
  6

 40
6.35
 41
6.35
 42
6.35000508
 43
6.35000508
 44
215.9
 45
279.4
 46
0.0
 47
0.0
 48
0.0
 49
0.0
140
0.0
141
0.0
142
1.0
143
1.0
 70
  1712
 72
     1
 73
     0
 74
     0
  7

 75
     0
147
1.0
148
0.0
149
0.0
100
AcDbLayout
  1
Model
 70
     1
 71
     0
 10
0.0
 20
0.0
 11
279.4
 21
215.9
 12
0.0
 22
0.0
 32
0.0
 14
0.0
 24
0.0
 34
0.0
 15
279.4
 25
215.9
 35
0.0
146
0.0
 13
0.0
 23
0.0
 33
0.0
 16
1.0
 26
0.0
 36
0.0
 17
0.0
 27
1.0
 37
0.0
 76
     0
330
1F
331
29
  0
MLINESTYLE
  5
18
102
{ACAD_REACTORS
330
17
102
}
330
17
100
AcDbMlineStyle
  2
Standard
 70
     0
  3

 62
   256
 51
90.0
 52
90.0
 71
     2
 49
0.5
 62
   256
  6
BYLAYER
 49
-0.5
 62
   256
  6
BYLAYER
  0
ACDBPLACEHOLDER
  5
F
102
{ACAD_REACTORS
330
E
102
}
330
E
  0
SCALE
  5
48
102
{ACAD_REACTORS
330
47
102
}
330
47
100
AcDbScale
 70
     0
300
1:1
140
1.0
141
1.0
290
     1
  0
SCALE
  5
49
102
{ACAD_REACTORS
330
47
102
}
330
47
100
AcDbScale
 70
     0
300
1:2
140
1.0
141
2.0
290
     0
  0
SCALE
  5
4A
102
{ACAD_REACTORS
330
47
102
}
330
47
100
AcDbScale
 70
     0
300
1:4
140
1.0
141
4.0
290
     0
  0
SCALE
  5
4B
102
{ACAD_REACTORS
330
47
102
}
330
47
100
AcDbScale
 70
     0
300
1:5
140
1.0
141
5.0
290
     0
  0
SCALE
  5
4C
102
{ACAD_REACTORS
330
47
102
}
330
47
100
AcDbScale
 70
     0
300
1:8
140
1.0
141
8.0
290
     0
  0
SCALE
  5
4D
102
{ACAD_REACTORS
330
47
102
}
330
47
100
AcDbScale
 70
     0
300
1:10
140
1.0
141
10.0
290
     0
  0
SCALE
  5
4E
102
{ACAD_REACTORS
330
47
102
}
330
47
100
AcDbScale
 70
     0
300
1:16
140
1.0
141
16.0
290
     0
  0
SCALE
  5
4F
102
{ACAD_REACTORS
330
47
102
}
330
47
100
AcDbScale
 70
     0
300
1:20
140
1.0
141
20.0
290
     0
  0
SCALE
  5
50
102
{ACAD_REACTORS
330
47
102
}
330
47
100
AcDbScale
 70
     0
300
1:30
140
1.0
141
30.0
290
     0
  0
SCALE
  5
51
102
{ACAD_REACTORS
330
47
102
}
330
47
100
AcDbScale
 70
     0
300
1:40
140
1.0
141
40.0
290
     0
  0
SCALE
  5
52
102
{ACAD_REACTORS
330
47
102
}
330
47
100
AcDbScale
 70
     0
300
1:50
140
1.0
141
50.0
290
     0
  0
SCALE
  5
53
102
{ACAD_REACTORS
330
47
102
}
330
47
100
AcDbScale
 70
     0
300
1:100
140
1.0
141
100.0
290
     0
  0
SCALE
  5
54
102
{ACAD_REACTORS
330
47
102
}
330
47
100
AcDbScale
 70
     0
300
2:1
140
2.0
141
1.0
290
     0
  0
SCALE
  5
55
102
{ACAD_REACTORS
330
47
102
}
330
47
100
AcDbScale
 70
     0
300
4:1
140
4.0
141
1.0
290
     0
  0
SCALE
  5
56
102
{ACAD_REACTORS
330
47
102
}
330
47
100
AcDbScale
 70
     0
300
8:1
140
8.0
141
1.0
290
     0
  0
SCALE
  5
57
102
{ACAD_REACTORS
330
47
102
}
330
47
100
AcDbScale
 70
     0
300
10:1
140
10.0
141
1.0
290
     0
  0
SCALE
  5
58
102
{ACAD_REACTORS
330
47
102
}
330
47
100
AcDbScale
 70
     0
300
100:1
140
100.0
141
1.0
290
     0
  0
SCALE
  5
59
102
{ACAD_REACTORS
330
47
102
}
330
47
100
AcDbScale
 70
     0
300
1/128" = 1'-0"
140
0.0078125
141
12.0
290
     0
  0
SCALE
  5
5A
102
{ACAD_REACTORS
330
47
102
}
330
47
100
AcDbScale
 70
     0
300
1/64" = 1'-0"
140
0.015625
141
12.0
290
     0
  0
SCALE
  5
5B
102
{ACAD_REACTORS
330
47
102
}
330
47
100
AcDbScale
 70
     0
300
1/32" = 1'-0"
140
0.03125
141
12.0
290
     0
  0
SCALE
  5
5C
102
{ACAD_REACTORS
330
47
102
}
330
47
100
AcDbScale
 70
     0
300
1/16" = 1'-0"
140
0.0625
141
12.0
290
     0
  0
SCALE
  5
5D
102
{ACAD_REACTORS
330
47
102
}
330
47
100
AcDbScale
 70
     0
300
3/32" = 1'-0"
140
0.09375
141
12.0
290
     0
  0
SCALE
  5
5E
102
{ACAD_REACTORS
330
47
102
}
330
47
100
AcDbScale
 70
     0
300
1/8" = 1'-0"
140
0.125
141
12.0
290
     0
  0
SCALE
  5
5F
102
{ACAD_REACTORS
330
47
102
}
330
47
100
AcDbScale
 70
     0
300
3/16" = 1'-0"
140
0.1875
141
12.0
290
     0
  0
SCALE
  5
60
102
{ACAD_REACTORS
330
47
102
}
330
47
100
AcDbScale
 70
     0
300
1/4" = 1'-0"
140
0.25
141
12.0
290
     0
  0
SCALE
  5
61
102
{ACAD_REACTORS
330
47
102
}
330
47
100
AcDbScale
 70
     0
300
3/8" = 1'-0"
140
0.375
141
12.0
290
     0
  0
SCALE
  5
62
102
{ACAD_REACTORS
330
47
102
}
330
47
100
AcDbScale
 70
     0
300
1/2" = 1'-0"
140
0.5
141
12.0
290
     0
  0
SCALE
  5
63
102
{ACAD_REACTORS
330
47
102
}
330
47
100
AcDbScale
 70
     0
300
3/4" = 1'-0"
140
0.75
141
12.0
290
     0
  0
SCALE
  5
64
102
{ACAD_REACTORS
330
47
102
}
330
47
100
AcDbScale
 70
     0
300
1" = 1'-0"
140
1.0
141
12.0
290
     0
  0
SCALE
  5
65
102
{ACAD_REACTORS
330
47
102
}
330
47
100
AcDbScale
 70
     0
300
1-1/2" = 1'-0"
140
1.5
141
12.0
290
     0
  0
SCALE
  5
66
102
{ACAD_REACTORS
330
47
102
}
330
47
100
AcDbScale
 70
     0
300
3" = 1'-0"
140
3.0
141
12.0
290
     0
  0
SCALE
  5
67
102
{ACAD_REACTORS
330
47
102
}
330
47
100
AcDbScale
 70
     0
300
6" = 1'-0"
140
6.0
141
12.0
290
     0
  0
SCALE
  5
68
102
{ACAD_REACTORS
330
47
102
}
330
47
100
AcDbScale
 70
     0
300
1'-0" = 1'-0"
140
12.0
141
12.0
290
     0
  0
ENDSEC
  0
EOF
